ISO-10303-21;
HEADER;
FILE_DESCRIPTION (( 'STEP AP203' ),
    '1' );
FILE_NAME ('Q-OZHWP-R2-10-1030-M.STEP',
    '2020-12-22T09:10:42',
    ( '' ),
    ( '' ),
    'SwSTEP 2.0',
    'SolidWorks 2020',
    '' );
FILE_SCHEMA (( 'CONFIG_CONTROL_DESIGN' ));
ENDSEC;

DATA;
#1 = EDGE_LOOP ( 'NONE', ( #169, #293, #265, #194 ) ) ;
#2 = UNCERTAINTY_MEASURE_WITH_UNIT (LENGTH_MEASURE( 1.000000000000000082E-05 ), #278, 'distance_accuracy_value', 'NONE');
#3 = COORDINATED_UNIVERSAL_TIME_OFFSET ( 8, 0, .AHEAD. ) ;
#4 = VERTEX_POINT ( 'NONE', #292 ) ;
#5 = VERTEX_POINT ( 'NONE', #112 ) ;
#6 = PERSON_AND_ORGANIZATION_ROLE ( 'creator' ) ;
#7 = AXIS2_PLACEMENT_3D ( 'NONE', #230, #204, #152 ) ;
#8 = ORIENTED_EDGE ( 'NONE', *, *, #149, .T. ) ;
#9 = VERTEX_POINT ( 'NONE', #37 ) ;
#10 = PLANE ( 'NONE',  #113 ) ;
#11 = DIRECTION ( 'NONE',  ( 0.000000000000000000, 0.000000000000000000, 1.000000000000000000 ) ) ;
#12 = APPROVAL_PERSON_ORGANIZATION ( #109, #254, #106 ) ;
#13 = PLANE ( 'NONE',  #170 ) ;
#14 = PLANE ( 'NONE',  #279 ) ;
#15 = EDGE_CURVE ( 'NONE', #5, #83, #27, .T. ) ;
#16 = CYLINDRICAL_SURFACE ( 'NONE', #84, 5.000000000000000888 ) ;
#17 = CIRCLE ( 'NONE', #190, 5.000000000000000888 ) ;
#18 = VECTOR ( 'NONE', #324, 1000.000000000000000 ) ;
#19 = DIRECTION ( 'NONE',  ( -1.000000000000000000, -0.000000000000000000, -0.000000000000000000 ) ) ;
#20 = DIRECTION ( 'NONE',  ( 0.000000000000000000, 0.000000000000000000, 1.000000000000000000 ) ) ;
#21 = AXIS2_PLACEMENT_3D ( 'NONE', #177, #227, #11 ) ;
#22 = ADVANCED_FACE ( 'NONE', ( #90 ), #14, .F. ) ;
#23 = FACE_OUTER_BOUND ( 'NONE', #240, .T. ) ;
#24 = EDGE_CURVE ( 'NONE', #5, #86, #144, .T. ) ;
#25 = PERSON_AND_ORGANIZATION_ROLE ( 'classification_officer' ) ;
#26 = ORIENTED_EDGE ( 'NONE', *, *, #149, .F. ) ;
#27 = CIRCLE ( 'NONE', #231, 12.69999999999999929 ) ;
#28 = DATE_AND_TIME ( #57, #145 ) ;
#29 = VERTEX_POINT ( 'NONE', #120 ) ;
#30 = APPROVAL_DATE_TIME ( #138, #254 ) ;
#31 = ORIENTED_EDGE ( 'NONE', *, *, #327, .F. ) ;
#32 = COORDINATED_UNIVERSAL_TIME_OFFSET ( 8, 0, .AHEAD. ) ;
#33 = EDGE_LOOP ( 'NONE', ( #212, #65 ) ) ;
#34 = CC_DESIGN_APPROVAL ( #172, ( #132 ) ) ;
#35 = SECURITY_CLASSIFICATION_LEVEL ( 'unclassified' ) ;
#36 =( GEOMETRIC_REPRESENTATION_CONTEXT ( 3 ) GLOBAL_UNCERTAINTY_ASSIGNED_CONTEXT ( ( #2 ) ) GLOBAL_UNIT_ASSIGNED_CONTEXT ( ( #278, #101, #333 ) ) REPRESENTATION_CONTEXT ( 'NONE', 'WORKASPACE' ) );
#37 = CARTESIAN_POINT ( 'NONE',  ( 3.000000000000000000, 0.000000000000000000, 5.000000000000001776 ) ) ;
#38 = CARTESIAN_POINT ( 'NONE',  ( -3.000000000000000000, 0.000000000000000000, 0.000000000000000000 ) ) ;
#39 = LINE ( 'NONE', #225, #18 ) ;
#40 = VECTOR ( 'NONE', #53, 1000.000000000000000 ) ;
#41 = CC_DESIGN_PERSON_AND_ORGANIZATION_ASSIGNMENT ( #163, #289, ( #132 ) ) ;
#42 = CARTESIAN_POINT ( 'NONE',  ( -3.000000000000000000, 0.000000000000000000, 0.000000000000000000 ) ) ;
#43 = EDGE_CURVE ( 'NONE', #283, #4, #39, .T. ) ;
#44 = DIRECTION ( 'NONE',  ( 0.000000000000000000, 0.000000000000000000, 1.000000000000000000 ) ) ;
#45 = CC_DESIGN_PERSON_AND_ORGANIZATION_ASSIGNMENT ( #191, #257, ( #132 ) ) ;
#46 = AXIS2_PLACEMENT_3D ( 'NONE', #151, #233, #178 ) ;
#47 = DIRECTION ( 'NONE',  ( -1.000000000000000000, 0.000000000000000000, -0.000000000000000000 ) ) ;
#48 = CYLINDRICAL_SURFACE ( 'NONE', #104, 12.69999999999999929 ) ;
#49 = ADVANCED_FACE ( 'NONE', ( #200 ), #16, .F. ) ;
#50 = DIRECTION ( 'NONE',  ( 0.000000000000000000, 0.000000000000000000, 1.000000000000000000 ) ) ;
#51 = DESIGN_CONTEXT ( 'detailed design', #300, 'design' ) ;
#52 = ADVANCED_FACE ( 'NONE', ( #92 ), #10, .F. ) ;
#53 = DIRECTION ( 'NONE',  ( -1.000000000000000000, -0.000000000000000000, -0.000000000000000000 ) ) ;
#54 = APPROVAL_DATE_TIME ( #286, #321 ) ;
#55 = APPLICATION_PROTOCOL_DEFINITION ( 'international standard', 'config_control_design', 1994, #300 ) ;
#56 = ORIENTED_EDGE ( 'NONE', *, *, #158, .F. ) ;
#57 = CALENDAR_DATE ( 2020, 22, 12 ) ;
#58 = ORIENTED_EDGE ( 'NONE', *, *, #248, .T. ) ;
#59 = ORIENTED_EDGE ( 'NONE', *, *, #193, .T. ) ;
#60 = PRODUCT_DEFINITION ( 'UNKNOWN', '', #132, #51 ) ;
#61 = CARTESIAN_POINT ( 'NONE',  ( 0.000000000000000000, 0.000000000000000000, 0.000000000000000000 ) ) ;
#62 = ORIENTED_EDGE ( 'NONE', *, *, #24, .F. ) ;
#63 = AXIS2_PLACEMENT_3D ( 'NONE', #282, #19, #129 ) ;
#64 = CIRCLE ( 'NONE', #284, 5.000000000000001776 ) ;
#65 = ORIENTED_EDGE ( 'NONE', *, *, #137, .F. ) ;
#66 = DIRECTION ( 'NONE',  ( 1.000000000000000000, 0.000000000000000000, 0.000000000000000000 ) ) ;
#67 = CARTESIAN_POINT ( 'NONE',  ( -3.000000000000000000, 0.000000000000000000, 5.000000000000000000 ) ) ;
#68 = FACE_OUTER_BOUND ( 'NONE', #110, .T. ) ;
#69 = AXIS2_PLACEMENT_3D ( 'NONE', #94, #277, #44 ) ;
#70 = DIRECTION ( 'NONE',  ( -1.000000000000000000, -0.000000000000000000, -0.000000000000000000 ) ) ;
#71 = DIRECTION ( 'NONE',  ( 0.000000000000000000, 0.000000000000000000, 1.000000000000000000 ) ) ;
#72 = CYLINDRICAL_SURFACE ( 'NONE', #63, 5.000000000000000888 ) ;
#73 = FACE_OUTER_BOUND ( 'NONE', #291, .T. ) ;
#74 = DIRECTION ( 'NONE',  ( 0.000000000000000000, 0.000000000000000000, 1.000000000000000000 ) ) ;
#75 = ADVANCED_FACE ( 'NONE', ( #299 ), #117, .F. ) ;
#76 = DIRECTION ( 'NONE',  ( -1.000000000000000000, -0.000000000000000000, -0.000000000000000000 ) ) ;
#77 = VECTOR ( 'NONE', #70, 1000.000000000000000 ) ;
#78 = AXIS2_PLACEMENT_3D ( 'NONE', #61, #220, #160 ) ;
#79 = MECHANICAL_CONTEXT ( 'NONE', #197, 'mechanical' ) ;
#80 = PERSON_AND_ORGANIZATION ( #319, #228 ) ;
#81 = ORIENTED_EDGE ( 'NONE', *, *, #222, .F. ) ;
#82 = APPROVAL_STATUS ( 'not_yet_approved' ) ;
#83 = VERTEX_POINT ( 'NONE', #203 ) ;
#84 = AXIS2_PLACEMENT_3D ( 'NONE', #245, #271, #302 ) ;
#85 = EDGE_CURVE ( 'NONE', #9, #29, #247, .T. ) ;
#86 = VERTEX_POINT ( 'NONE', #226 ) ;
#87 = CALENDAR_DATE ( 2020, 22, 12 ) ;
#88 = VERTEX_POINT ( 'NONE', #328 ) ;
#89 = CC_DESIGN_PERSON_AND_ORGANIZATION_ASSIGNMENT ( #165, #25, ( #251 ) ) ;
#90 = FACE_OUTER_BOUND ( 'NONE', #216, .T. ) ;
#91 = AXIS2_PLACEMENT_3D ( 'NONE', #102, #232, #252 ) ;
#92 = FACE_OUTER_BOUND ( 'NONE', #33, .T. ) ;
#93 = CARTESIAN_POINT ( 'NONE',  ( -1.614212418857619014, 0.000000000000000000, 5.000000000000000888 ) ) ;
#94 = CARTESIAN_POINT ( 'NONE',  ( -3.000000000000000000, 0.000000000000000000, 0.000000000000000000 ) ) ;
#95 = CARTESIAN_POINT ( 'NONE',  ( -3.000000000000000000, 5.000000000000000000, 0.000000000000000000 ) ) ;
#96 = AXIS2_PLACEMENT_3D ( 'NONE', #156, #76, #50 ) ;
#97 = CARTESIAN_POINT ( 'NONE',  ( -3.000000000000000000, 0.000000000000000000, 0.000000000000000000 ) ) ;
#98 = EDGE_CURVE ( 'NONE', #86, #195, #274, .T. ) ;
#99 = DIRECTION ( 'NONE',  ( -1.000000000000000000, -0.000000000000000000, -0.000000000000000000 ) ) ;
#100 = DIRECTION ( 'NONE',  ( 1.000000000000000000, 0.000000000000000000, 0.000000000000000000 ) ) ;
#101 =( NAMED_UNIT ( * ) PLANE_ANGLE_UNIT ( ) SI_UNIT ( $, .RADIAN. ) );
#102 = CARTESIAN_POINT ( 'NONE',  ( 3.000000000000000000, 0.000000000000000000, 0.000000000000000000 ) ) ;
#103 = CARTESIAN_POINT ( 'NONE',  ( 3.000000000000000000, 12.69999999999999929, 0.000000000000000000 ) ) ;
#104 = AXIS2_PLACEMENT_3D ( 'NONE', #153, #330, #285 ) ;
#105 = CC_DESIGN_APPROVAL ( #321, ( #60 ) ) ;
#106 = APPROVAL_ROLE ( '' ) ;
#107 = ORIENTED_EDGE ( 'NONE', *, *, #98, .T. ) ;
#108 = ADVANCED_BREP_SHAPE_REPRESENTATION ( 'Q-OZHWP-R2-10-1030-M', ( #256, #78 ), #36 ) ;
#109 = PERSON_AND_ORGANIZATION ( #319, #228 ) ;
#110 = EDGE_LOOP ( 'NONE', ( #116, #107 ) ) ;
#111 = ADVANCED_FACE ( 'NONE', ( #301, #68 ), #13, .F. ) ;
#112 = CARTESIAN_POINT ( 'NONE',  ( 3.000000000000000000, 1.555301434917138433E-15, -12.69999999999999929 ) ) ;
#113 = AXIS2_PLACEMENT_3D ( 'NONE', #174, #198, #229 ) ;
#114 = ORIENTED_EDGE ( 'NONE', *, *, #239, .T. ) ;
#115 = APPROVAL_STATUS ( 'not_yet_approved' ) ;
#116 = ORIENTED_EDGE ( 'NONE', *, *, #167, .T. ) ;
#117 = CYLINDRICAL_SURFACE ( 'NONE', #21, 5.000000000000000888 ) ;
#118 = DIRECTION ( 'NONE',  ( 0.000000000000000000, 0.000000000000000000, -1.000000000000000000 ) ) ;
#119 = EDGE_CURVE ( 'NONE', #4, #134, #130, .T. ) ;
#120 = CARTESIAN_POINT ( 'NONE',  ( 1.250000000000000444, 0.000000000000000000, 5.000000000000000000 ) ) ;
#121 = CC_DESIGN_PERSON_AND_ORGANIZATION_ASSIGNMENT ( #80, #213, ( #185 ) ) ;
#122 = DIRECTION ( 'NONE',  ( -0.000000000000000000, 0.000000000000000000, 1.000000000000000000 ) ) ;
#123 = CIRCLE ( 'NONE', #69, 5.000000000000000000 ) ;
#124 = DIRECTION ( 'NONE',  ( 1.000000000000000000, 0.000000000000000000, 0.000000000000000000 ) ) ;
#125 = AXIS2_PLACEMENT_3D ( 'NONE', #38, #143, #244 ) ;
#126 = PRODUCT_DEFINITION_SHAPE ( 'NONE', 'NONE',  #60 ) ;
#127 = APPLICATION_PROTOCOL_DEFINITION ( 'international standard', 'config_control_design', 1994, #197 ) ;
#128 = CARTESIAN_POINT ( 'NONE',  ( 3.000000000000000000, 0.000000000000000000, 0.000000000000000000 ) ) ;
#129 = DIRECTION ( 'NONE',  ( 0.000000000000000000, 0.000000000000000000, 1.000000000000000000 ) ) ;
#130 = CIRCLE ( 'NONE', #269, 5.000000000000000000 ) ;
#131 = CARTESIAN_POINT ( 'NONE',  ( -1.250000000000000222, 0.000000000000000000, 0.000000000000000000 ) ) ;
#132 = PRODUCT_DEFINITION_FORMATION_WITH_SPECIFIED_SOURCE ( 'ANY', '', #185, .NOT_KNOWN. ) ;
#133 = APPROVAL_DATE_TIME ( #28, #172 ) ;
#134 = VERTEX_POINT ( 'NONE', #67 ) ;
#135 = SHAPE_DEFINITION_REPRESENTATION ( #126, #108 ) ;
#136 = VERTEX_POINT ( 'NONE', #250 ) ;
#137 = EDGE_CURVE ( 'NONE', #283, #136, #196, .T. ) ;
#138 = DATE_AND_TIME ( #261, #297 ) ;
#139 = ORIENTED_EDGE ( 'NONE', *, *, #119, .T. ) ;
#140 = CIRCLE ( 'NONE', #46, 5.000000000000000000 ) ;
#141 = APPROVAL_STATUS ( 'not_yet_approved' ) ;
#142 = CARTESIAN_POINT ( 'NONE',  ( 3.000000000000000000, 0.000000000000000000, 0.000000000000000000 ) ) ;
#143 = DIRECTION ( 'NONE',  ( -1.000000000000000000, -0.000000000000000000, -0.000000000000000000 ) ) ;
#144 = LINE ( 'NONE', #146, #150 ) ;
#145 = LOCAL_TIME ( 17, 10, 42.00000000000000000, #236 ) ;
#146 = CARTESIAN_POINT ( 'NONE',  ( -1.614212418857619014, 1.555301434917138433E-15, -12.69999999999999929 ) ) ;
#147 = LINE ( 'NONE', #272, #77 ) ;
#148 = CYLINDRICAL_SURFACE ( 'NONE', #155, 5.000000000000000888 ) ;
#149 = EDGE_CURVE ( 'NONE', #83, #195, #147, .T. ) ;
#150 = VECTOR ( 'NONE', #249, 1000.000000000000000 ) ;
#151 = CARTESIAN_POINT ( 'NONE',  ( 1.250000000000000444, 0.000000000000000000, 0.000000000000000000 ) ) ;
#152 = DIRECTION ( 'NONE',  ( 0.000000000000000000, 0.000000000000000000, 1.000000000000000000 ) ) ;
#153 = CARTESIAN_POINT ( 'NONE',  ( -1.614212418857619014, 0.000000000000000000, 0.000000000000000000 ) ) ;
#154 = ORIENTED_EDGE ( 'NONE', *, *, #137, .T. ) ;
#155 = AXIS2_PLACEMENT_3D ( 'NONE', #223, #306, #71 ) ;
#156 = CARTESIAN_POINT ( 'NONE',  ( -1.614212418857619014, 0.000000000000000000, 0.000000000000000000 ) ) ;
#157 = APPROVAL_ROLE ( '' ) ;
#158 = EDGE_CURVE ( 'NONE', #134, #4, #123, .T. ) ;
#159 = EDGE_LOOP ( 'NONE', ( #59, #237 ) ) ;
#160 = DIRECTION ( 'NONE',  ( 1.000000000000000000, 0.000000000000000000, 0.000000000000000000 ) ) ;
#161 = ADVANCED_FACE ( 'NONE', ( #176 ), #148, .F. ) ;
#162 = EDGE_LOOP ( 'NONE', ( #56, #320 ) ) ;
#163 = PERSON_AND_ORGANIZATION ( #319, #228 ) ;
#164 = ORIENTED_EDGE ( 'NONE', *, *, #263, .T. ) ;
#165 = PERSON_AND_ORGANIZATION ( #319, #228 ) ;
#166 = EDGE_LOOP ( 'NONE', ( #114, #288, #139, #219 ) ) ;
#167 = EDGE_CURVE ( 'NONE', #195, #86, #267, .T. ) ;
#168 = PERSON_AND_ORGANIZATION ( #319, #228 ) ;
#169 = ORIENTED_EDGE ( 'NONE', *, *, #263, .F. ) ;
#170 = AXIS2_PLACEMENT_3D ( 'NONE', #95, #124, #326 ) ;
#171 = LOCAL_TIME ( 17, 10, 42.00000000000000000, #3 ) ;
#172 = APPROVAL ( #141, 'UNSPECIFIED' ) ;
#173 = ORIENTED_EDGE ( 'NONE', *, *, #15, .F. ) ;
#174 = CARTESIAN_POINT ( 'NONE',  ( -1.250000000000000222, 5.000000000000000000, 0.000000000000000000 ) ) ;
#175 = DIRECTION ( 'NONE',  ( 0.000000000000000000, 0.000000000000000000, 1.000000000000000000 ) ) ;
#176 = FACE_OUTER_BOUND ( 'NONE', #166, .T. ) ;
#177 = CARTESIAN_POINT ( 'NONE',  ( -1.614212418857619014, 0.000000000000000000, 0.000000000000000000 ) ) ;
#178 = DIRECTION ( 'NONE',  ( 0.000000000000000000, 0.000000000000000000, 1.000000000000000000 ) ) ;
#179 = FACE_OUTER_BOUND ( 'NONE', #268, .T. ) ;
#180 = APPROVAL_PERSON_ORGANIZATION ( #266, #172, #157 ) ;
#181 = CARTESIAN_POINT ( 'NONE',  ( -1.614212418857619014, 0.000000000000000000, 5.000000000000000888 ) ) ;
#182 = DIRECTION ( 'NONE',  ( -1.000000000000000000, -0.000000000000000000, -0.000000000000000000 ) ) ;
#183 = LINE ( 'NONE', #181, #40 ) ;
#184 = AXIS2_PLACEMENT_3D ( 'NONE', #207, #182, #74 ) ;
#185 = PRODUCT ( 'Q-OZHWP-R2-10-1030-M', 'Q-OZHWP-R2-10-1030-M', '', ( #79 ) ) ;
#186 = APPROVAL_ROLE ( '' ) ;
#187 = ORIENTED_EDGE ( 'NONE', *, *, #310, .F. ) ;
#188 = DATE_AND_TIME ( #259, #298 ) ;
#189 = ORIENTED_EDGE ( 'NONE', *, *, #15, .T. ) ;
#190 = AXIS2_PLACEMENT_3D ( 'NONE', #131, #100, #313 ) ;
#191 = PERSON_AND_ORGANIZATION ( #319, #228 ) ;
#192 = ORIENTED_EDGE ( 'NONE', *, *, #24, .T. ) ;
#193 = EDGE_CURVE ( 'NONE', #9, #262, #311, .T. ) ;
#194 = ORIENTED_EDGE ( 'NONE', *, *, #222, .T. ) ;
#195 = VERTEX_POINT ( 'NONE', #329 ) ;
#196 = CIRCLE ( 'NONE', #290, 5.000000000000000888 ) ;
#197 = APPLICATION_CONTEXT ( 'configuration controlled 3d designs of mechanical parts and assemblies' ) ;
#198 = DIRECTION ( 'NONE',  ( 1.000000000000000000, 0.000000000000000000, 0.000000000000000000 ) ) ;
#199 = DIRECTION ( 'NONE',  ( -1.000000000000000000, -0.000000000000000000, -0.000000000000000000 ) ) ;
#200 = FACE_OUTER_BOUND ( 'NONE', #1, .T. ) ;
#201 = AXIS2_PLACEMENT_3D ( 'NONE', #103, #47, #205 ) ;
#202 = DIRECTION ( 'NONE',  ( -1.000000000000000000, -0.000000000000000000, -0.000000000000000000 ) ) ;
#203 = CARTESIAN_POINT ( 'NONE',  ( 3.000000000000000000, 0.000000000000000000, 12.69999999999999929 ) ) ;
#204 = DIRECTION ( 'NONE',  ( -1.000000000000000000, -0.000000000000000000, -0.000000000000000000 ) ) ;
#205 = DIRECTION ( 'NONE',  ( -0.000000000000000000, 0.000000000000000000, 1.000000000000000000 ) ) ;
#206 = DIRECTION ( 'NONE',  ( -1.000000000000000000, -0.000000000000000000, -0.000000000000000000 ) ) ;
#207 = CARTESIAN_POINT ( 'NONE',  ( 3.000000000000000000, 0.000000000000000000, 0.000000000000000000 ) ) ;
#208 = ADVANCED_FACE ( 'NONE', ( #23 ), #48, .T. ) ;
#209 = VECTOR ( 'NONE', #206, 1000.000000000000000 ) ;
#210 = VECTOR ( 'NONE', #199, 1000.000000000000000 ) ;
#211 = COORDINATED_UNIVERSAL_TIME_OFFSET ( 8, 0, .AHEAD. ) ;
#212 = ORIENTED_EDGE ( 'NONE', *, *, #239, .F. ) ;
#213 = PERSON_AND_ORGANIZATION_ROLE ( 'design_owner' ) ;
#214 = ORIENTED_EDGE ( 'NONE', *, *, #43, .F. ) ;
#215 = COORDINATED_UNIVERSAL_TIME_OFFSET ( 8, 0, .AHEAD. ) ;
#216 = EDGE_LOOP ( 'NONE', ( #81, #187 ) ) ;
#217 = CLOSED_SHELL ( 'NONE', ( #303, #161, #75, #22, #49, #294, #111, #208, #287, #52 ) ) ;
#218 = AXIS2_PLACEMENT_3D ( 'NONE', #42, #323, #175 ) ;
#219 = ORIENTED_EDGE ( 'NONE', *, *, #248, .F. ) ;
#220 = DIRECTION ( 'NONE',  ( 0.000000000000000000, 0.000000000000000000, 1.000000000000000000 ) ) ;
#221 = DIRECTION ( 'NONE',  ( -1.000000000000000000, -0.000000000000000000, -0.000000000000000000 ) ) ;
#222 = EDGE_CURVE ( 'NONE', #29, #88, #317, .T. ) ;
#223 = CARTESIAN_POINT ( 'NONE',  ( -1.614212418857619014, 0.000000000000000000, 0.000000000000000000 ) ) ;
#224 = CC_DESIGN_APPROVAL ( #254, ( #251 ) ) ;
#225 = CARTESIAN_POINT ( 'NONE',  ( -1.614212418857619014, 6.123233995736767268E-16, -5.000000000000000888 ) ) ;
#226 = CARTESIAN_POINT ( 'NONE',  ( -3.000000000000000000, 1.555301434917138433E-15, -12.69999999999999929 ) ) ;
#227 = DIRECTION ( 'NONE',  ( -1.000000000000000000, -0.000000000000000000, -0.000000000000000000 ) ) ;
#228 = ORGANIZATION ( 'UNSPECIFIED', 'UNSPECIFIED', '' ) ;
#229 = DIRECTION ( 'NONE',  ( 0.000000000000000000, 0.000000000000000000, -1.000000000000000000 ) ) ;
#230 = CARTESIAN_POINT ( 'NONE',  ( 1.250000000000000444, 0.000000000000000000, 0.000000000000000000 ) ) ;
#231 = AXIS2_PLACEMENT_3D ( 'NONE', #142, #221, #322 ) ;
#232 = DIRECTION ( 'NONE',  ( -1.000000000000000000, -0.000000000000000000, -0.000000000000000000 ) ) ;
#233 = DIRECTION ( 'NONE',  ( -1.000000000000000000, -0.000000000000000000, -0.000000000000000000 ) ) ;
#234 = DATE_TIME_ROLE ( 'creation_date' ) ;
#235 = ORIENTED_EDGE ( 'NONE', *, *, #242, .F. ) ;
#236 = COORDINATED_UNIVERSAL_TIME_OFFSET ( 8, 0, .AHEAD. ) ;
#237 = ORIENTED_EDGE ( 'NONE', *, *, #242, .T. ) ;
#238 = ORIENTED_EDGE ( 'NONE', *, *, #85, .F. ) ;
#239 = EDGE_CURVE ( 'NONE', #136, #283, #17, .T. ) ;
#240 = EDGE_LOOP ( 'NONE', ( #62, #189, #8, #315 ) ) ;
#241 = CALENDAR_DATE ( 2020, 22, 12 ) ;
#242 = EDGE_CURVE ( 'NONE', #262, #9, #64, .T. ) ;
#243 = EDGE_LOOP ( 'NONE', ( #235, #164, #258, #238 ) ) ;
#244 = DIRECTION ( 'NONE',  ( 0.000000000000000000, 0.000000000000000000, 1.000000000000000000 ) ) ;
#245 = CARTESIAN_POINT ( 'NONE',  ( -1.614212418857619014, 0.000000000000000000, 0.000000000000000000 ) ) ;
#246 = CIRCLE ( 'NONE', #91, 12.69999999999999929 ) ;
#247 = LINE ( 'NONE', #93, #210 ) ;
#248 = EDGE_CURVE ( 'NONE', #136, #134, #183, .T. ) ;
#249 = DIRECTION ( 'NONE',  ( -1.000000000000000000, -0.000000000000000000, -0.000000000000000000 ) ) ;
#250 = CARTESIAN_POINT ( 'NONE',  ( -1.250000000000000222, 0.000000000000000000, 5.000000000000000888 ) ) ;
#251 = SECURITY_CLASSIFICATION ( '', '', #35 ) ;
#252 = DIRECTION ( 'NONE',  ( 0.000000000000000000, 0.000000000000000000, 1.000000000000000000 ) ) ;
#253 = PLANE ( 'NONE',  #201 ) ;
#254 = APPROVAL ( #82, 'UNSPECIFIED' ) ;
#255 = FACE_OUTER_BOUND ( 'NONE', #260, .T. ) ;
#256 = MANIFOLD_SOLID_BREP ( 'Ðý×', #217 ) ;
#257 = PERSON_AND_ORGANIZATION_ROLE ( 'creator' ) ;
#258 = ORIENTED_EDGE ( 'NONE', *, *, #310, .T. ) ;
#259 = CALENDAR_DATE ( 2020, 22, 12 ) ;
#260 = EDGE_LOOP ( 'NONE', ( #31, #173 ) ) ;
#261 = CALENDAR_DATE ( 2020, 22, 12 ) ;
#262 = VERTEX_POINT ( 'NONE', #280 ) ;
#263 = EDGE_CURVE ( 'NONE', #262, #88, #307, .T. ) ;
#264 = DATE_TIME_ROLE ( 'classification_date' ) ;
#265 = ORIENTED_EDGE ( 'NONE', *, *, #85, .T. ) ;
#266 = PERSON_AND_ORGANIZATION ( #319, #228 ) ;
#267 = CIRCLE ( 'NONE', #125, 12.69999999999999929 ) ;
#268 = EDGE_LOOP ( 'NONE', ( #316, #192, #318, #26 ) ) ;
#269 = AXIS2_PLACEMENT_3D ( 'NONE', #97, #202, #325 ) ;
#270 = CARTESIAN_POINT ( 'NONE',  ( 1.250000000000000222, 5.000000000000000000, 0.000000000000000000 ) ) ;
#271 = DIRECTION ( 'NONE',  ( -1.000000000000000000, -0.000000000000000000, -0.000000000000000000 ) ) ;
#272 = CARTESIAN_POINT ( 'NONE',  ( -1.614212418857619014, 0.000000000000000000, 12.69999999999999929 ) ) ;
#273 = CC_DESIGN_SECURITY_CLASSIFICATION ( #251, ( #132 ) ) ;
#274 = CIRCLE ( 'NONE', #218, 12.69999999999999929 ) ;
#275 = DIRECTION ( 'NONE',  ( -1.000000000000000000, 0.000000000000000000, -0.000000000000000000 ) ) ;
#276 = CC_DESIGN_DATE_AND_TIME_ASSIGNMENT ( #188, #234, ( #60 ) ) ;
#277 = DIRECTION ( 'NONE',  ( -1.000000000000000000, -0.000000000000000000, -0.000000000000000000 ) ) ;
#278 =( LENGTH_UNIT ( ) NAMED_UNIT ( * ) SI_UNIT ( .MILLI., .METRE. ) );
#279 = AXIS2_PLACEMENT_3D ( 'NONE', #270, #275, #122 ) ;
#280 = CARTESIAN_POINT ( 'NONE',  ( 3.000000000000000000, 6.123233995736768255E-16, -5.000000000000001776 ) ) ;
#281 = CARTESIAN_POINT ( 'NONE',  ( -1.614212418857619014, 6.123233995736767268E-16, -5.000000000000000888 ) ) ;
#282 = CARTESIAN_POINT ( 'NONE',  ( -1.614212418857619014, 0.000000000000000000, 0.000000000000000000 ) ) ;
#283 = VERTEX_POINT ( 'NONE', #309 ) ;
#284 = AXIS2_PLACEMENT_3D ( 'NONE', #128, #99, #20 ) ;
#285 = DIRECTION ( 'NONE',  ( 0.000000000000000000, 0.000000000000000000, 1.000000000000000000 ) ) ;
#286 = DATE_AND_TIME ( #87, #171 ) ;
#287 = ADVANCED_FACE ( 'NONE', ( #255, #332 ), #253, .F. ) ;
#288 = ORIENTED_EDGE ( 'NONE', *, *, #43, .T. ) ;
#289 = PERSON_AND_ORGANIZATION_ROLE ( 'design_supplier' ) ;
#290 = AXIS2_PLACEMENT_3D ( 'NONE', #304, #66, #118 ) ;
#291 = EDGE_LOOP ( 'NONE', ( #214, #154, #58, #296 ) ) ;
#292 = CARTESIAN_POINT ( 'NONE',  ( -3.000000000000000000, 6.123233995736766282E-16, -5.000000000000000000 ) ) ;
#293 = ORIENTED_EDGE ( 'NONE', *, *, #193, .F. ) ;
#294 = ADVANCED_FACE ( 'NONE', ( #73 ), #72, .F. ) ;
#295 = LOCAL_TIME ( 17, 10, 42.00000000000000000, #211 ) ;
#296 = ORIENTED_EDGE ( 'NONE', *, *, #158, .T. ) ;
#297 = LOCAL_TIME ( 17, 10, 42.00000000000000000, #32 ) ;
#298 = LOCAL_TIME ( 17, 10, 42.00000000000000000, #215 ) ;
#299 = FACE_OUTER_BOUND ( 'NONE', #243, .T. ) ;
#300 = APPLICATION_CONTEXT ( 'configuration controlled 3d designs of mechanical parts and assemblies' ) ;
#301 = FACE_BOUND ( 'NONE', #162, .T. ) ;
#302 = DIRECTION ( 'NONE',  ( 0.000000000000000000, 0.000000000000000000, 1.000000000000000000 ) ) ;
#303 = ADVANCED_FACE ( 'NONE', ( #179 ), #308, .T. ) ;
#304 = CARTESIAN_POINT ( 'NONE',  ( -1.250000000000000222, 0.000000000000000000, 0.000000000000000000 ) ) ;
#305 = PRODUCT_RELATED_PRODUCT_CATEGORY ( 'detail', '', ( #185 ) ) ;
#306 = DIRECTION ( 'NONE',  ( -1.000000000000000000, -0.000000000000000000, -0.000000000000000000 ) ) ;
#307 = LINE ( 'NONE', #281, #209 ) ;
#308 = CYLINDRICAL_SURFACE ( 'NONE', #96, 12.69999999999999929 ) ;
#309 = CARTESIAN_POINT ( 'NONE',  ( -1.250000000000000222, 6.123233995736767268E-16, -5.000000000000000888 ) ) ;
#310 = EDGE_CURVE ( 'NONE', #88, #29, #140, .T. ) ;
#311 = CIRCLE ( 'NONE', #184, 5.000000000000001776 ) ;
#312 = APPROVAL_PERSON_ORGANIZATION ( #314, #321, #186 ) ;
#313 = DIRECTION ( 'NONE',  ( 0.000000000000000000, 0.000000000000000000, -1.000000000000000000 ) ) ;
#314 = PERSON_AND_ORGANIZATION ( #319, #228 ) ;
#315 = ORIENTED_EDGE ( 'NONE', *, *, #98, .F. ) ;
#316 = ORIENTED_EDGE ( 'NONE', *, *, #327, .T. ) ;
#317 = CIRCLE ( 'NONE', #7, 5.000000000000000000 ) ;
#318 = ORIENTED_EDGE ( 'NONE', *, *, #167, .F. ) ;
#319 = PERSON ( 'UNSPECIFIED', 'UNSPECIFIED', 'UNSPECIFIED', ('UNSPECIFIED'), ('UNSPECIFIED'), ('UNSPECIFIED') ) ;
#320 = ORIENTED_EDGE ( 'NONE', *, *, #119, .F. ) ;
#321 = APPROVAL ( #115, 'UNSPECIFIED' ) ;
#322 = DIRECTION ( 'NONE',  ( 0.000000000000000000, 0.000000000000000000, 1.000000000000000000 ) ) ;
#323 = DIRECTION ( 'NONE',  ( -1.000000000000000000, -0.000000000000000000, -0.000000000000000000 ) ) ;
#324 = DIRECTION ( 'NONE',  ( -1.000000000000000000, -0.000000000000000000, -0.000000000000000000 ) ) ;
#325 = DIRECTION ( 'NONE',  ( 0.000000000000000000, 0.000000000000000000, 1.000000000000000000 ) ) ;
#326 = DIRECTION ( 'NONE',  ( 0.000000000000000000, 0.000000000000000000, -1.000000000000000000 ) ) ;
#327 = EDGE_CURVE ( 'NONE', #83, #5, #246, .T. ) ;
#328 = CARTESIAN_POINT ( 'NONE',  ( 1.250000000000000444, 6.123233995736766282E-16, -5.000000000000000000 ) ) ;
#329 = CARTESIAN_POINT ( 'NONE',  ( -3.000000000000000000, 0.000000000000000000, 12.69999999999999929 ) ) ;
#330 = DIRECTION ( 'NONE',  ( -1.000000000000000000, -0.000000000000000000, -0.000000000000000000 ) ) ;
#331 = CC_DESIGN_PERSON_AND_ORGANIZATION_ASSIGNMENT ( #168, #6, ( #60 ) ) ;
#332 = FACE_BOUND ( 'NONE', #159, .T. ) ;
#333 =( NAMED_UNIT ( * ) SI_UNIT ( $, .STERADIAN. ) SOLID_ANGLE_UNIT ( ) );
#334 = CC_DESIGN_DATE_AND_TIME_ASSIGNMENT ( #335, #264, ( #251 ) ) ;
#335 = DATE_AND_TIME ( #241, #295 ) ;
ENDSEC;
END-ISO-10303-21;
